Мумий Троль - Владивосток 2000 скачать песню в формате mp3

Рейтинг: 0

Исполнитель: Мумий Троль

Название песни: Владивосток 2000

Время: 02:41

Дата добавления: 2015-08-31

Просмотров: 484

Устал ждать пока пройдет реклама? Слушай Мумий Троль - Владивосток 2000 без рекламы по прямой ссылке.

Скачать Другие песни исполнителя Мумий Троль

Текст песни:

Intro:
(Am)
G|-5-5---5-5-5---5-|-7-5-4---5-------| Dist
| | | | | | | | | | | | | | | | X 2
A|-0-0---0-0-0---0-|-0-0---0-0-0---0-| Bass

Verse:
Am Am
С гранатою в кармане с чекою в руке
Am Am
Мне чайки здесь запели на знакомом языке
Dm Dm
Я отходил спокойно не прятался не вор
C E
Колесами печально в небо смотрит круизер

Am Am
Когда туман растаял и проныла луна
Am Am
Со смены не вернулась молодая жена
Dm Dm
Вода отравится погаснет свет утихнет звук
C E
К тебе я больше не вернусь такой теперь я друг

Chorus:
Am Dm
Уходим уходим уходим
C E
Наступят времена почище
Am Dm
Бьется родная в экстазе пылая
C E
Владивосток 2000

Verse:

В объятьях полупьяных женщин гибли моряки
Тельняшки рвали и кололи прямо на груди
Мне сердце остановится не будет слышен стук
Ты свой последний танец танцевал уже без рук

Быть может откопают через тысячу лет
В фантиках жвачки и осколках монет
Где вылизан весь берег не дошел до волны
Где рельсы вылезали из карманов страны

Chorus X2

Am E Dm
E------------|-7-7-3-----------|-7-7-3-----------| GU
B----8-------|-------3---3-3---|-------3---3-3---| IT
G|-2---5---2---5---------------------| AR
| | | | | | | | | | | | | | | | | | | | | | | | | | | | | | | |
A|-0-0-0-0-0-0-0-0-------|-5-5-5-5-5-5-5-5-|-5-5-5-5-5-5-5-5-| BA
E------|-0-0-0-0-0-0-0-0-------------| SS

Am E Dm
E------------|-7-7-3-----------|-------/7--------| GU
B----8-------|-------3---3-3-1-|-0---3-----------| IT
G|-2---5---2---5---------------------| AR
| | | | | | | | | | | | | | | | | | | | | | | | | | | | | | | |
A|-0-0-0-0-0-0-0-0-------|-5-5-5-5-5-5-5-5-|-5-5-5-5-5-5-5-5-| BA
E------|-0-0-0-0-0-0-0-0-------------| SS

Chorus
Am E Dm
D------------|-2-2-------------| GU
A|-3-3-2-2---------------|-0-0-------------| IT
E|---------5-5---0-|-0---------------------| AR
| | | | | | | | | | | | | | | | | | | | | | | |
A|-3-3-2-2---------------|-0-0-------------| BA
E|---------5-5---0-|-0---------------------| SS

Видео
Vladivostok 2000 — Mumiy Troll
Комментарии (0)
Добавить комментарий